ISO-10303-21;
HEADER;
FILE_DESCRIPTION (( 'STEP AP203' ),
    '1' );
FILE_NAME ('Q-ZDWWP-R21-25.4-1064-SHM.STEP',
    '2020-12-22T09:01:41',
    ( '' ),
    ( '' ),
    'SwSTEP 2.0',
    'SolidWorks 2020',
    '' );
FILE_SCHEMA (( 'CONFIG_CONTROL_DESIGN' ));
ENDSEC;

DATA;
#1 = APPROVAL_PERSON_ORGANIZATION ( #31, #60, #126 ) ;
#2 = FACE_OUTER_BOUND ( 'NONE', #157, .T. ) ;
#3 = CYLINDRICAL_SURFACE ( 'NONE', #58, 15.00000000000000000 ) ;
#4 = CC_DESIGN_PERSON_AND_ORGANIZATION_ASSIGNMENT ( #85, #135, ( #156 ) ) ;
#5 = CARTESIAN_POINT ( 'NONE',  ( 3.000000000000000000, 0.000000000000000000, 15.00000000000000000 ) ) ;
#6 = AXIS2_PLACEMENT_3D ( 'NONE', #161, #167, #97 ) ;
#7 = AXIS2_PLACEMENT_3D ( 'NONE', #22, #124, #171 ) ;
#8 = FACE_OUTER_BOUND ( 'NONE', #105, .T. ) ;
#9 = COORDINATED_UNIVERSAL_TIME_OFFSET ( 8, 0, .AHEAD. ) ;
#10 = DATE_AND_TIME ( #139, #89 ) ;
#11 = DIRECTION ( 'NONE',  ( 0.000000000000000000, 0.000000000000000000, 1.000000000000000000 ) ) ;
#12 = CALENDAR_DATE ( 2020, 22, 12 ) ;
#13 = PRODUCT_DEFINITION ( 'UNKNOWN', '', #96, #144 ) ;
#14 = UNCERTAINTY_MEASURE_WITH_UNIT (LENGTH_MEASURE( 1.000000000000000082E-05 ), #23, 'distance_accuracy_value', 'NONE');
#15 = COORDINATED_UNIVERSAL_TIME_OFFSET ( 8, 0, .AHEAD. ) ;
#16 = COORDINATED_UNIVERSAL_TIME_OFFSET ( 8, 0, .AHEAD. ) ;
#17 = PRODUCT_RELATED_PRODUCT_CATEGORY ( 'detail', '', ( #111 ) ) ;
#18 = AXIS2_PLACEMENT_3D ( 'NONE', #43, #133, #151 ) ;
#19 = ORIENTED_EDGE ( 'NONE', *, *, #79, .F. ) ;
#20 = ORIENTED_EDGE ( 'NONE', *, *, #116, .T. ) ;
#21 = APPROVAL ( #26, 'UNSPECIFIED' ) ;
#22 = CARTESIAN_POINT ( 'NONE',  ( -3.000000000000000000, 0.000000000000000000, 0.000000000000000000 ) ) ;
#23 =( LENGTH_UNIT ( ) NAMED_UNIT ( * ) SI_UNIT ( .MILLI., .METRE. ) );
#24 = PERSON_AND_ORGANIZATION_ROLE ( 'design_supplier' ) ;
#25 =( NAMED_UNIT ( * ) PLANE_ANGLE_UNIT ( ) SI_UNIT ( $, .RADIAN. ) );
#26 = APPROVAL_STATUS ( 'not_yet_approved' ) ;
#27 = APPROVAL_DATE_TIME ( #173, #104 ) ;
#28 = ADVANCED_FACE ( 'NONE', ( #2 ), #122, .F. ) ;
#29 = LOCAL_TIME ( 17, 1, 41.00000000000000000, #16 ) ;
#30 = EDGE_CURVE ( 'NONE', #77, #61, #53, .T. ) ;
#31 = PERSON_AND_ORGANIZATION ( #128, #73 ) ;
#32 = AXIS2_PLACEMENT_3D ( 'NONE', #51, #149, #158 ) ;
#33 = CC_DESIGN_DATE_AND_TIME_ASSIGNMENT ( #99, #150, ( #13 ) ) ;
#34 = VERTEX_POINT ( 'NONE', #113 ) ;
#35 = APPLICATION_CONTEXT ( 'configuration controlled 3d designs of mechanical parts and assemblies' ) ;
#36 = ADVANCED_FACE ( 'NONE', ( #121 ), #169, .T. ) ;
#37 = ADVANCED_BREP_SHAPE_REPRESENTATION ( 'Q-ZDWWP-R21-25.4-1064-SHM', ( #112, #18 ), #147 ) ;
#38 = DIRECTION ( 'NONE',  ( 0.000000000000000000, 0.000000000000000000, 1.000000000000000000 ) ) ;
#39 = CARTESIAN_POINT ( 'NONE',  ( 3.000000000000000000, 0.000000000000000000, 0.000000000000000000 ) ) ;
#40 = CIRCLE ( 'NONE', #6, 15.00000000000000000 ) ;
#41 = CC_DESIGN_APPROVAL ( #104, ( #13 ) ) ;
#42 = DIRECTION ( 'NONE',  ( 0.000000000000000000, 0.000000000000000000, -1.000000000000000000 ) ) ;
#43 = CARTESIAN_POINT ( 'NONE',  ( 0.000000000000000000, 0.000000000000000000, 0.000000000000000000 ) ) ;
#44 = CC_DESIGN_PERSON_AND_ORGANIZATION_ASSIGNMENT ( #137, #24, ( #96 ) ) ;
#45 = LOCAL_TIME ( 17, 1, 41.00000000000000000, #9 ) ;
#46 = EDGE_CURVE ( 'NONE', #61, #143, #101, .T. ) ;
#47 = SHAPE_DEFINITION_REPRESENTATION ( #92, #37 ) ;
#48 = DATE_TIME_ROLE ( 'classification_date' ) ;
#49 = APPROVAL_DATE_TIME ( #153, #60 ) ;
#50 = ORIENTED_EDGE ( 'NONE', *, *, #79, .T. ) ;
#51 = CARTESIAN_POINT ( 'NONE',  ( -1.614212418857619014, 0.000000000000000000, 0.000000000000000000 ) ) ;
#52 = AXIS2_PLACEMENT_3D ( 'NONE', #131, #123, #134 ) ;
#53 = LINE ( 'NONE', #69, #175 ) ;
#54 = DIRECTION ( 'NONE',  ( -1.000000000000000000, 0.000000000000000000, -0.000000000000000000 ) ) ;
#55 = CARTESIAN_POINT ( 'NONE',  ( 3.000000000000000888, 12.69999999999999929, 0.000000000000000000 ) ) ;
#56 = PERSON_AND_ORGANIZATION_ROLE ( 'design_owner' ) ;
#57 = DATE_AND_TIME ( #86, #107 ) ;
#58 = AXIS2_PLACEMENT_3D ( 'NONE', #159, #170, #38 ) ;
#59 = APPROVAL_PERSON_ORGANIZATION ( #152, #21, #67 ) ;
#60 = APPROVAL ( #164, 'UNSPECIFIED' ) ;
#61 = VERTEX_POINT ( 'NONE', #108 ) ;
#62 = APPROVAL_PERSON_ORGANIZATION ( #172, #104, #72 ) ;
#63 = ORIENTED_EDGE ( 'NONE', *, *, #116, .F. ) ;
#64 = PLANE ( 'NONE',  #174 ) ;
#65 = CC_DESIGN_APPROVAL ( #60, ( #156 ) ) ;
#66 = DIRECTION ( 'NONE',  ( -1.000000000000000000, -0.000000000000000000, -0.000000000000000000 ) ) ;
#67 = APPROVAL_ROLE ( '' ) ;
#68 = APPLICATION_CONTEXT ( 'configuration controlled 3d designs of mechanical parts and assemblies' ) ;
#69 = CARTESIAN_POINT ( 'NONE',  ( -1.614212418857619014, 0.000000000000000000, 15.00000000000000000 ) ) ;
#70 = SECURITY_CLASSIFICATION_LEVEL ( 'unclassified' ) ;
#71 = CARTESIAN_POINT ( 'NONE',  ( -3.000000000000000888, 12.69999999999999929, 0.000000000000000000 ) ) ;
#72 = APPROVAL_ROLE ( '' ) ;
#73 = ORGANIZATION ( 'UNSPECIFIED', 'UNSPECIFIED', '' ) ;
#74 = PERSON_AND_ORGANIZATION ( #128, #73 ) ;
#75 = AXIS2_PLACEMENT_3D ( 'NONE', #71, #148, #42 ) ;
#76 = EDGE_CURVE ( 'NONE', #77, #34, #168, .T. ) ;
#77 = VERTEX_POINT ( 'NONE', #5 ) ;
#78 = ORIENTED_EDGE ( 'NONE', *, *, #30, .T. ) ;
#79 = EDGE_CURVE ( 'NONE', #34, #77, #145, .T. ) ;
#80 = CLOSED_SHELL ( 'NONE', ( #140, #146, #36, #28 ) ) ;
#81 = CARTESIAN_POINT ( 'NONE',  ( -1.614212418857619014, 1.836970198721029589E-15, -15.00000000000000000 ) ) ;
#82 = CC_DESIGN_PERSON_AND_ORGANIZATION_ASSIGNMENT ( #74, #87, ( #96 ) ) ;
#83 = DIRECTION ( 'NONE',  ( -1.000000000000000000, -0.000000000000000000, -0.000000000000000000 ) ) ;
#84 = CC_DESIGN_SECURITY_CLASSIFICATION ( #156, ( #96 ) ) ;
#85 = PERSON_AND_ORGANIZATION ( #128, #73 ) ;
#86 = CALENDAR_DATE ( 2020, 22, 12 ) ;
#87 = PERSON_AND_ORGANIZATION_ROLE ( 'creator' ) ;
#88 = EDGE_CURVE ( 'NONE', #34, #143, #93, .T. ) ;
#89 = LOCAL_TIME ( 17, 1, 41.00000000000000000, #15 ) ;
#90 = COORDINATED_UNIVERSAL_TIME_OFFSET ( 8, 0, .AHEAD. ) ;
#91 = ORIENTED_EDGE ( 'NONE', *, *, #88, .T. ) ;
#92 = PRODUCT_DEFINITION_SHAPE ( 'NONE', 'NONE',  #13 ) ;
#93 = LINE ( 'NONE', #81, #141 ) ;
#94 = CARTESIAN_POINT ( 'NONE',  ( -3.000000000000000000, 1.836970198721029589E-15, -15.00000000000000000 ) ) ;
#95 = APPLICATION_PROTOCOL_DEFINITION ( 'international standard', 'config_control_design', 1994, #35 ) ;
#96 = PRODUCT_DEFINITION_FORMATION_WITH_SPECIFIED_SOURCE ( 'ANY', '', #111, .NOT_KNOWN. ) ;
#97 = DIRECTION ( 'NONE',  ( 0.000000000000000000, 0.000000000000000000, 1.000000000000000000 ) ) ;
#98 = MECHANICAL_CONTEXT ( 'NONE', #35, 'mechanical' ) ;
#99 = DATE_AND_TIME ( #162, #29 ) ;
#100 = PERSON_AND_ORGANIZATION_ROLE ( 'creator' ) ;
#101 = CIRCLE ( 'NONE', #7, 15.00000000000000000 ) ;
#102 = LOCAL_TIME ( 17, 1, 41.00000000000000000, #90 ) ;
#103 = CALENDAR_DATE ( 2020, 22, 12 ) ;
#104 = APPROVAL ( #114, 'UNSPECIFIED' ) ;
#105 = EDGE_LOOP ( 'NONE', ( #155, #19 ) ) ;
#106 = AXIS2_PLACEMENT_3D ( 'NONE', #39, #83, #11 ) ;
#107 = LOCAL_TIME ( 17, 1, 41.00000000000000000, #160 ) ;
#108 = CARTESIAN_POINT ( 'NONE',  ( -3.000000000000000000, 0.000000000000000000, 15.00000000000000000 ) ) ;
#109 = DIRECTION ( 'NONE',  ( -0.000000000000000000, 0.000000000000000000, 1.000000000000000000 ) ) ;
#110 = PERSON_AND_ORGANIZATION ( #128, #73 ) ;
#111 = PRODUCT ( 'Q-ZDWWP-R21-25.4-1064-SHM', 'Q-ZDWWP-R21-25.4-1064-SHM', '', ( #98 ) ) ;
#112 = MANIFOLD_SOLID_BREP ( 'Ðý×', #80 ) ;
#113 = CARTESIAN_POINT ( 'NONE',  ( 3.000000000000000000, 1.836970198721029589E-15, -15.00000000000000000 ) ) ;
#114 = APPROVAL_STATUS ( 'not_yet_approved' ) ;
#115 = APPROVAL_DATE_TIME ( #57, #21 ) ;
#116 = EDGE_CURVE ( 'NONE', #143, #61, #40, .T. ) ;
#117 = EDGE_LOOP ( 'NONE', ( #119, #91, #142, #166 ) ) ;
#118 = CC_DESIGN_PERSON_AND_ORGANIZATION_ASSIGNMENT ( #163, #100, ( #13 ) ) ;
#119 = ORIENTED_EDGE ( 'NONE', *, *, #76, .T. ) ;
#120 = ORIENTED_EDGE ( 'NONE', *, *, #88, .F. ) ;
#121 = FACE_OUTER_BOUND ( 'NONE', #165, .T. ) ;
#122 = PLANE ( 'NONE',  #75 ) ;
#123 = DIRECTION ( 'NONE',  ( -1.000000000000000000, -0.000000000000000000, -0.000000000000000000 ) ) ;
#124 = DIRECTION ( 'NONE',  ( -1.000000000000000000, -0.000000000000000000, -0.000000000000000000 ) ) ;
#125 = APPLICATION_PROTOCOL_DEFINITION ( 'international standard', 'config_control_design', 1994, #68 ) ;
#126 = APPROVAL_ROLE ( '' ) ;
#127 = ORIENTED_EDGE ( 'NONE', *, *, #46, .T. ) ;
#128 = PERSON ( 'UNSPECIFIED', 'UNSPECIFIED', 'UNSPECIFIED', ('UNSPECIFIED'), ('UNSPECIFIED'), ('UNSPECIFIED') ) ;
#129 = DIRECTION ( 'NONE',  ( -1.000000000000000000, -0.000000000000000000, -0.000000000000000000 ) ) ;
#130 = CC_DESIGN_PERSON_AND_ORGANIZATION_ASSIGNMENT ( #110, #56, ( #111 ) ) ;
#131 = CARTESIAN_POINT ( 'NONE',  ( 3.000000000000000000, 0.000000000000000000, 0.000000000000000000 ) ) ;
#132 = FACE_OUTER_BOUND ( 'NONE', #117, .T. ) ;
#133 = DIRECTION ( 'NONE',  ( 0.000000000000000000, 0.000000000000000000, 1.000000000000000000 ) ) ;
#134 = DIRECTION ( 'NONE',  ( 0.000000000000000000, 0.000000000000000000, 1.000000000000000000 ) ) ;
#135 = PERSON_AND_ORGANIZATION_ROLE ( 'classification_officer' ) ;
#136 =( NAMED_UNIT ( * ) SI_UNIT ( $, .STERADIAN. ) SOLID_ANGLE_UNIT ( ) );
#137 = PERSON_AND_ORGANIZATION ( #128, #73 ) ;
#138 = CC_DESIGN_APPROVAL ( #21, ( #96 ) ) ;
#139 = CALENDAR_DATE ( 2020, 22, 12 ) ;
#140 = ADVANCED_FACE ( 'NONE', ( #132 ), #3, .T. ) ;
#141 = VECTOR ( 'NONE', #129, 1000.000000000000000 ) ;
#142 = ORIENTED_EDGE ( 'NONE', *, *, #46, .F. ) ;
#143 = VERTEX_POINT ( 'NONE', #94 ) ;
#144 = DESIGN_CONTEXT ( 'detailed design', #68, 'design' ) ;
#145 = CIRCLE ( 'NONE', #52, 15.00000000000000000 ) ;
#146 = ADVANCED_FACE ( 'NONE', ( #8 ), #64, .F. ) ;
#147 =( GEOMETRIC_REPRESENTATION_CONTEXT ( 3 ) GLOBAL_UNCERTAINTY_ASSIGNED_CONTEXT ( ( #14 ) ) GLOBAL_UNIT_ASSIGNED_CONTEXT ( ( #23, #25, #136 ) ) REPRESENTATION_CONTEXT ( 'NONE', 'WORKASPACE' ) );
#148 = DIRECTION ( 'NONE',  ( 1.000000000000000000, 0.000000000000000000, 0.000000000000000000 ) ) ;
#149 = DIRECTION ( 'NONE',  ( -1.000000000000000000, -0.000000000000000000, -0.000000000000000000 ) ) ;
#150 = DATE_TIME_ROLE ( 'creation_date' ) ;
#151 = DIRECTION ( 'NONE',  ( 1.000000000000000000, 0.000000000000000000, 0.000000000000000000 ) ) ;
#152 = PERSON_AND_ORGANIZATION ( #128, #73 ) ;
#153 = DATE_AND_TIME ( #103, #102 ) ;
#154 = CC_DESIGN_DATE_AND_TIME_ASSIGNMENT ( #10, #48, ( #156 ) ) ;
#155 = ORIENTED_EDGE ( 'NONE', *, *, #76, .F. ) ;
#156 = SECURITY_CLASSIFICATION ( '', '', #70 ) ;
#157 = EDGE_LOOP ( 'NONE', ( #127, #20 ) ) ;
#158 = DIRECTION ( 'NONE',  ( 0.000000000000000000, 0.000000000000000000, 1.000000000000000000 ) ) ;
#159 = CARTESIAN_POINT ( 'NONE',  ( -1.614212418857619014, 0.000000000000000000, 0.000000000000000000 ) ) ;
#160 = COORDINATED_UNIVERSAL_TIME_OFFSET ( 8, 0, .AHEAD. ) ;
#161 = CARTESIAN_POINT ( 'NONE',  ( -3.000000000000000000, 0.000000000000000000, 0.000000000000000000 ) ) ;
#162 = CALENDAR_DATE ( 2020, 22, 12 ) ;
#163 = PERSON_AND_ORGANIZATION ( #128, #73 ) ;
#164 = APPROVAL_STATUS ( 'not_yet_approved' ) ;
#165 = EDGE_LOOP ( 'NONE', ( #120, #50, #78, #63 ) ) ;
#166 = ORIENTED_EDGE ( 'NONE', *, *, #30, .F. ) ;
#167 = DIRECTION ( 'NONE',  ( -1.000000000000000000, -0.000000000000000000, -0.000000000000000000 ) ) ;
#168 = CIRCLE ( 'NONE', #106, 15.00000000000000000 ) ;
#169 = CYLINDRICAL_SURFACE ( 'NONE', #32, 15.00000000000000000 ) ;
#170 = DIRECTION ( 'NONE',  ( -1.000000000000000000, -0.000000000000000000, -0.000000000000000000 ) ) ;
#171 = DIRECTION ( 'NONE',  ( 0.000000000000000000, 0.000000000000000000, 1.000000000000000000 ) ) ;
#172 = PERSON_AND_ORGANIZATION ( #128, #73 ) ;
#173 = DATE_AND_TIME ( #12, #45 ) ;
#174 = AXIS2_PLACEMENT_3D ( 'NONE', #55, #54, #109 ) ;
#175 = VECTOR ( 'NONE', #66, 1000.000000000000000 ) ;
ENDSEC;
END-ISO-10303-21;
